  0
SECTION
  2
HEADER
  9
$ACADVER
  1
AC1015
  9
$ACADMAINTVER
 70
     6
  9
$DWGCODEPAGE
  3
ANSI_1254
  9
$INSBASE
 10
0.0
 20
0.0
 30
0.0
  9
$EXTMIN
 10
0.0
 20
0.0
 30
0.0
  9
$EXTMAX
 10
279.4
 20
215.9
 30
0.0
  9
$LIMMIN
 10
0.0
 20
0.0
  9
$LIMMAX
 10
279.4
 20
215.9
  9
$ORTHOMODE
 70
     0
  9
$REGENMODE
 70
     1
  9
$FILLMODE
 70
     1
  9
$QTEXTMODE
 70
     0
  9
$MIRRTEXT
 70
     1
  9
$LTSCALE
 40
1.0
  9
$ATTMODE
 70
     1
  9
$TEXTSIZE
 40
3.5
  9
$TRACEWID
 40
1.0
  9
$TEXTSTYLE
  7
Standard
  9
$CLAYER
  8
0
  9
$CELTYPE
  6
ByLayer
  9
$CECOLOR
 62
   256
  9
$CELTSCALE
 40
1.0
  9
$DISPSILH
 70
     0
  9
$DIMSCALE
 40
1.0
  9
$DIMASZ
 40
3.5
  9
$DIMEXO
 40
1.0
  9
$DIMDLI
 40
3.75
  9
$DIMRND
 40
0.0
  9
$DIMDLE
 40
0.0
  9
$DIMEXE
 40
1.0
  9
$DIMTP
 40
0.0
  9
$DIMTM
 40
0.0
  9
$DIMTXT
 40
3.5
  9
$DIMCEN
 40
2.5
  9
$DIMTSZ
 40
0.0
  9
$DIMTOL
 70
     0
  9
$DIMLIM
 70
     0
  9
$DIMTIH
 70
     1
  9
$DIMTOH
 70
     1
  9
$DIMSE1
 70
     0
  9
$DIMSE2
 70
     0
  9
$DIMTAD
 70
     1
  9
$DIMZIN
 70
     0
  9
$DIMBLK
  1

  9
$DIMASO
 70
     1
  9
$DIMSHO
 70
     1
  9
$DIMPOST
  1

  9
$DIMAPOST
  1

  9
$DIMALT
 70
     0
  9
$DIMALTD
 70
     3
  9
$DIMALTF
 40
0.0393700787
  9
$DIMLFAC
 40
1.0
  9
$DIMTOFL
 70
     1
  9
$DIMTVP
 40
0.0
  9
$DIMTIX
 70
     0
  9
$DIMSOXD
 70
     0
  9
$DIMSAH
 70
     0
  9
$DIMBLK1
  1

  9
$DIMBLK2
  1

  9
$DIMSTYLE
  2
ISO-25
  9
$DIMCLRD
 70
     0
  9
$DIMCLRE
 70
     0
  9
$DIMCLRT
 70
     0
  9
$DIMTFAC
 40
1.0
  9
$DIMGAP
 40
1.524
  9
$DIMJUST
 70
     0
  9
$DIMSD1
 70
     0
  9
$DIMSD2
 70
     0
  9
$DIMTOLJ
 70
     0
  9
$DIMTZIN
 70
     0
  9
$DIMALTZ
 70
     0
  9
$DIMALTTZ
 70
     0
  9
$DIMUPT
 70
     0
  9
$DIMDEC
 70
     2
  9
$DIMTDEC
 70
     2
  9
$DIMALTU
 70
     2
  9
$DIMALTTD
 70
     3
  9
$DIMTXSTY
  7
Standard
  9
$DIMAUNIT
 70
     0
  9
$DIMADEC
 70
     2
  9
$DIMALTRND
 40
0.0
  9
$DIMAZIN
 70
     0
  9
$DIMDSEP
 70
    44
  9
$DIMATFIT
 70
     3
  9
$DIMFRAC
 70
     0
  9
$DIMLDRBLK
  1

  9
$DIMLUNIT
 70
     2
  9
$DIMLWD
 70
    -2
  9
$DIMLWE
 70
    -2
  9
$DIMTMOVE
 70
     0
  9
$LUNITS
 70
     2
  9
$LUPREC
 70
     2
  9
$SKETCHINC
 40
1.0
  9
$FILLETRAD
 40
10.0
  9
$AUNITS
 70
     0
  9
$AUPREC
 70
     2
  9
$MENU
  1
.
  9
$ELEVATION
 40
0.0
  9
$PELEVATION
 40
0.0
  9
$THICKNESS
 40
0.0
  9
$LIMCHECK
 70
     0
  9
$CHAMFERA
 40
0.0
  9
$CHAMFERB
 40
0.0
  9
$CHAMFERC
 40
0.0
  9
$CHAMFERD
 40
0.0
  9
$SKPOLY
 70
     0
  9
$TDCREATE
 40
2460704.460199699
  9
$TDUCREATE
 40
2460704.335199699
  9
$TDUPDATE
 40
2460704.460199872
  9
$TDUUPDATE
 40
2460704.335199872
  9
$TDINDWG
 40
0.0000000116
  9
$TDUSRTIMER
 40
0.0000000116
  9
$USRTIMER
 70
     1
  9
$ANGBASE
 50
0.0
  9
$ANGDIR
 70
     0
  9
$PDMODE
 70
     0
  9
$PDSIZE
 40
-1.0
  9
$PLINEWID
 40
0.0
  9
$SPLFRAME
 70
     0
  9
$SPLINETYPE
 70
     6
  9
$SPLINESEGS
 70
     8
  9
$HANDSEED
  5
B6
  9
$SURFTAB1
 70
     6
  9
$SURFTAB2
 70
     6
  9
$SURFTYPE
 70
     6
  9
$SURFU
 70
     6
  9
$SURFV
 70
     6
  9
$UCSBASE
  2

  9
$UCSNAME
  2

  9
$UCSORG
 10
0.0
 20
0.0
 30
0.0
  9
$UCSXDIR
 10
1.0
 20
0.0
 30
0.0
  9
$UCSYDIR
 10
0.0
 20
1.0
 30
0.0
  9
$UCSORTHOREF
  2

  9
$UCSORTHOVIEW
 70
     0
  9
$UCSORGTOP
 10
0.0
 20
0.0
 30
0.0
  9
$UCSORGBOTTOM
 10
0.0
 20
0.0
 30
0.0
  9
$UCSORGLEFT
 10
0.0
 20
0.0
 30
0.0
  9
$UCSORGRIGHT
 10
0.0
 20
0.0
 30
0.0
  9
$UCSORGFRONT
 10
0.0
 20
0.0
 30
0.0
  9
$UCSORGBACK
 10
0.0
 20
0.0
 30
0.0
  9
$PUCSBASE
  2

  9
$PUCSNAME
  2

  9
$PUCSORG
 10
0.0
 20
0.0
 30
0.0
  9
$PUCSXDIR
 10
1.0
 20
0.0
 30
0.0
  9
$PUCSYDIR
 10
0.0
 20
1.0
 30
0.0
  9
$PUCSORTHOREF
  2

  9
$PUCSORTHOVIEW
 70
     0
  9
$PUCSORGTOP
 10
0.0
 20
0.0
 30
0.0
  9
$PUCSORGBOTTOM
 10
0.0
 20
0.0
 30
0.0
  9
$PUCSORGLEFT
 10
0.0
 20
0.0
 30
0.0
  9
$PUCSORGRIGHT
 10
0.0
 20
0.0
 30
0.0
  9
$PUCSORGFRONT
 10
0.0
 20
0.0
 30
0.0
  9
$PUCSORGBACK
 10
0.0
 20
0.0
 30
0.0
  9
$USERI1
 70
     0
  9
$USERI2
 70
     0
  9
$USERI3
 70
     0
  9
$USERI4
 70
     0
  9
$USERI5
 70
     0
  9
$USERR1
 40
0.0
  9
$USERR2
 40
0.0
  9
$USERR3
 40
0.0
  9
$USERR4
 40
0.0
  9
$USERR5
 40
0.0
  9
$WORLDVIEW
 70
     1
  9
$SHADEDGE
 70
     3
  9
$SHADEDIF
 70
    70
  9
$TILEMODE
 70
     1
  9
$MAXACTVP
 70
    64
  9
$PINSBASE
 10
0.0
 20
0.0
 30
0.0
  9
$PLIMCHECK
 70
     0
  9
$PEXTMIN
 10
1.0000000000E+20
 20
1.0000000000E+20
 30
1.0000000000E+20
  9
$PEXTMAX
 10
-1.0000000000E+20
 20
-1.0000000000E+20
 30
-1.0000000000E+20
  9
$PLIMMIN
 10
0.0
 20
0.0
  9
$PLIMMAX
 10
420.0
 20
297.0
  9
$UNITMODE
 70
     0
  9
$VISRETAIN
 70
     1
  9
$PLINEGEN
 70
     0
  9
$PSLTSCALE
 70
     1
  9
$TREEDEPTH
 70
  3020
  9
$CMLSTYLE
  2
Standard
  9
$CMLJUST
 70
     0
  9
$CMLSCALE
 40
20.0
  9
$PROXYGRAPHICS
 70
     1
  9
$MEASUREMENT
 70
     1
  9
$CELWEIGHT
370
    -1
  9
$ENDCAPS
280
     0
  9
$JOINSTYLE
280
     0
  9
$LWDISPLAY
290
     1
  9
$INSUNITS
 70
     4
  9
$HYPERLINKBASE
  1

  9
$STYLESHEET
  1

  9
$XEDIT
290
     1
  9
$CEPSNTYPE
380
     0
  9
$PSTYLEMODE
290
     1
  9
$FINGERPRINTGUID
  2
{faf60780-7390-4937-9a9d-db6f6553ef69}
  9
$VERSIONGUID
  2
{FAEB1C32-E019-11D5-929B-00C0DF256EC4}
  9
$EXTNAMES
290
     1
  9
$PSVPSCALE
 40
0.0
  9
$OLESTARTUP
290
     0
  0
ENDSEC
  0
SECTION
  2
CLASSES
  0
CLASS
  1
ACDBDICTIONARYWDFLT
  2
AcDbDictionaryWithDefault
  3
ObjectDBX Classes
 90
        0
280
     0
281
     0
  0
CLASS
  1
VISUALSTYLE
  2
AcDbVisualStyle
  3
ObjectDBX Classes
 90
     4095
280
     0
281
     0
  0
CLASS
  1
MATERIAL
  2
AcDbMaterial
  3
ObjectDBX Classes
 90
     1153
280
     0
281
     0
  0
CLASS
  1
SCALE
  2
AcDbScale
  3
ObjectDBX Classes
 90
     1153
280
     0
281
     0
  0
CLASS
  1
TABLESTYLE
  2
AcDbTableStyle
  3
ObjectDBX Classes
 90
     4095
280
     0
281
     0
  0
CLASS
  1
MLEADERSTYLE
  2
AcDbMLeaderStyle
  3
ACDB_MLEADERSTYLE_CLASS
 90
     4095
280
     0
281
     0
  0
CLASS
  1
SUN
  2
AcDbSun
  3
SCENEOE
 90
     1153
280
     0
281
     0
  0
CLASS
  1
ACDBPLACEHOLDER
  2
AcDbPlaceHolder
  3
ObjectDBX Classes
 90
        0
280
     0
281
     0
  0
CLASS
  1
LAYOUT
  2
AcDbLayout
  3
ObjectDBX Classes
 90
        0
280
     0
281
     0
  0
ENDSEC
  0
SECTION
  2
TABLES
  0
TABLE
  2
VPORT
  5
8
330
0
100
AcDbSymbolTable
 70
     1
  0
VPORT
  5
29
330
8
100
AcDbSymbolTableRecord
100
AcDbViewportTableRecord
  2
*Active
 70
     0
 10
0.0
 20
0.0
 11
1.0
 21
1.0
 12
139.7
 22
107.95
 13
0.0
 23
0.0
 14
10.0
 24
10.0
 15
10.0
 25
10.0
 16
0.0
 26
0.0
 36
1.0
 17
0.0
 27
0.0
 37
0.0
 40
215.9
 41
1.2941176471
 42
50.0
 43
0.0
 44
0.0
 50
0.0
 51
0.0
 71
     0
 72
  2000
 73
     1
 74
     3
 75
     0
 76
     0
 77
     0
 78
     0
281
     0
 65
     1
110
0.0
120
0.0
130
0.0
111
1.0
121
0.0
131
0.0
112
0.0
122
1.0
132
0.0
 79
     0
146
0.0
  0
ENDTAB
  0
TABLE
  2
LTYPE
  5
5
330
0
100
AcDbSymbolTable
 70
     6
  0
LTYPE
  5
14
330
5
100
AcDbSymbolTableRecord
100
AcDbLinetypeTableRecord
  2
ByBlock
 70
     0
  3

 72
    65
 73
     0
 40
0.0
  0
LTYPE
  5
15
330
5
100
AcDbSymbolTableRecord
100
AcDbLinetypeTableRecord
  2
ByLayer
 70
     0
  3

 72
    65
 73
     0
 40
0.0
  0
LTYPE
  5
16
330
5
100
AcDbSymbolTableRecord
100
AcDbLinetypeTableRecord
  2
Continuous
 70
     0
  3
Solid line
 72
    65
 73
     0
 40
0.0
  0
LTYPE
  5
6E
330
5
100
AcDbSymbolTableRecord
100
AcDbLinetypeTableRecord
  2
HIDDEN
 70
     0
  3
Hidden __ __ __ __ __ __ __ __ __ __ __ __ __ __
 72
    65
 73
     2
 40
1.905
 49
1.27
 74
     0
 49
-0.635
 74
     0
  0
LTYPE
  5
6F
330
5
100
AcDbSymbolTableRecord
100
AcDbLinetypeTableRecord
  2
PHANTOM
 70
     0
  3
Phantom ______  __  __  ______  __  __  ______
 72
    65
 73
     6
 40
12.7
 49
6.35
 74
     0
 49
-1.27
 74
     0
 49
1.27
 74
     0
 49
-1.27
 74
     0
 49
1.27
 74
     0
 49
-1.27
 74
     0
  0
LTYPE
  5
70
330
5
100
AcDbSymbolTableRecord
100
AcDbLinetypeTableRecord
  2
CENTER
 70
     0
  3
Center ____ _ ____ _ ____ _ ____ _ ____ _ ____
 72
    65
 73
     4
 40
10.16
 49
6.35
 74
     0
 49
-1.27
 74
     0
 49
1.27
 74
     0
 49
-1.27
 74
     0
  0
LTYPE
  5
71
330
5
100
AcDbSymbolTableRecord
100
AcDbLinetypeTableRecord
  2
CENTERX2
 70
     0
  3
Center (2x) ________  __  ________  __  _____
 72
    65
 73
     4
 40
20.32
 49
12.7
 74
     0
 49
-2.54
 74
     0
 49
2.54
 74
     0
 49
-2.54
 74
     0
  0
LTYPE
  5
72
330
5
100
AcDbSymbolTableRecord
100
AcDbLinetypeTableRecord
  2
DOT2
 70
     0
  3
Dot (.5x) ........................................
 72
    65
 73
     2
 40
0.635
 49
0.0
 74
     0
 49
-0.635
 74
     0
  0
ENDTAB
  0
TABLE
  2
LAYER
  5
2
330
0
100
AcDbSymbolTable
 70
    17
  0
LAYER
  5
10
330
2
100
AcDbSymbolTableRecord
100
AcDbLayerTableRecord
  2
0
 70
     0
 62
     7
  6
Continuous
370
    -3
390
F
  0
LAYER
  5
73
330
2
100
AcDbSymbolTableRecord
100
AcDbLayerTableRecord
  2
FORMAT
 70
     0
 62
     7
  6
Continuous
370
    -3
390
F
  0
LAYER
  5
74
330
2
100
AcDbSymbolTableRecord
100
AcDbLayerTableRecord
  2
YARDIMCI_GEOMETRI
 70
     0
 62
    -6
  6
Continuous
290
     0
370
    -3
390
F
  0
LAYER
  5
75
330
2
100
AcDbSymbolTableRecord
100
AcDbLayerTableRecord
  2
SAYFA_CERCEVESI
 70
     0
 62
     7
  6
Continuous
370
    25
390
F
  0
LAYER
  5
76
330
2
100
AcDbSymbolTableRecord
100
AcDbLayerTableRecord
  2
ANTET
 70
     0
 62
     7
  6
Continuous
370
    -3
390
F
  0
LAYER
  5
77
330
2
100
AcDbSymbolTableRecord
100
AcDbLayerTableRecord
  2
OLCU
 70
     0
 62
   150
  6
Continuous
370
    -3
390
F
  0
LAYER
  5
78
330
2
100
AcDbSymbolTableRecord
100
AcDbLayerTableRecord
  2
METIN
 70
     0
 62
    96
  6
Continuous
370
    -3
390
F
  0
LAYER
  5
79
330
2
100
AcDbSymbolTableRecord
100
AcDbLayerTableRecord
  2
BALON
 70
     0
 62
     5
  6
Continuous
370
    -3
390
F
  0
LAYER
  5
7A
330
2
100
AcDbSymbolTableRecord
100
AcDbLayerTableRecord
  2
VURGU
 70
     0
 62
     7
  6
Continuous
370
    -3
390
F
  0
LAYER
  5
7B
330
2
100
AcDbSymbolTableRecord
100
AcDbLayerTableRecord
  2
SILIK
 70
     0
 62
     7
  6
Continuous
370
    -3
390
F
  0
LAYER
  5
7C
330
2
100
AcDbSymbolTableRecord
100
AcDbLayerTableRecord
  2
MODEL
 70
     0
 62
     7
  6
Continuous
370
    -3
390
F
  0
LAYER
  5
7D
330
2
100
AcDbSymbolTableRecord
100
AcDbLayerTableRecord
  2
DETAYLANDıRMA
 70
     0
 62
   190
  6
Continuous
370
    -3
390
F
  0
LAYER
  5
7E
330
2
100
AcDbSymbolTableRecord
100
AcDbLayerTableRecord
  2
TOLERANS
 70
     0
 62
   230
  6
Continuous
370
    -3
390
F
  0
LAYER
  5
7F
330
2
100
AcDbSymbolTableRecord
100
AcDbLayerTableRecord
  2
MERKEZ_CIZGILERI
 70
     0
 62
    30
  6
Continuous
370
    -3
390
F
  0
LAYER
  5
80
330
2
100
AcDbSymbolTableRecord
100
AcDbLayerTableRecord
  2
KESIT-DETAY_CIZGILERI
 70
     0
 62
     7
  6
Continuous
370
    -3
390
F
  0
LAYER
  5
81
330
2
100
AcDbSymbolTableRecord
100
AcDbLayerTableRecord
  2
\U+041E\U+0421\U+0415\U+0412\U+042B\U+0415
 70
     0
 62
     7
  6
Continuous
370
    -3
390
F
  0
LAYER
  5
82
330
2
100
AcDbSymbolTableRecord
100
AcDbLayerTableRecord
  2
\U+0412\U+041E\U+0414\U+042F\U+041D\U+042B\U+0415_\U+0417\U+041D\U+0410\U+041A\U+0418
 70
     0
 62
    11
  6
Continuous
370
    -3
390
F
  0
ENDTAB
  0
TABLE
  2
STYLE
  5
3
330
0
100
AcDbSymbolTable
 70
     1
  0
STYLE
  5
11
330
3
100
AcDbSymbolTableRecord
100
AcDbTextStyleTableRecord
  2
Standard
 70
     0
 40
0.0
 41
1.0
 50
0.0
 71
     0
 42
3.5
  3
txt
  4

  0
ENDTAB
  0
TABLE
  2
VIEW
  5
6
330
0
100
AcDbSymbolTable
 70
     0
  0
ENDTAB
  0
TABLE
  2
UCS
  5
7
330
0
100
AcDbSymbolTable
 70
     0
  0
ENDTAB
  0
TABLE
  2
APPID
  5
9
330
0
100
AcDbSymbolTable
 70
     1
  0
APPID
  5
12
330
9
100
AcDbSymbolTableRecord
100
AcDbRegAppTableRecord
  2
ACAD
 70
     0
  0
ENDTAB
  0
TABLE
  2
DIMSTYLE
  5
A
330
0
100
AcDbSymbolTable
 70
     1
100
AcDbDimStyleTable
  0
DIMSTYLE
105
27
330
A
100
AcDbSymbolTableRecord
100
AcDbDimStyleTableRecord
  2
ISO-25
 70
     0
 41
2.5
 42
0.625
 43
3.75
 44
1.25
 73
     0
 74
     0
 77
     1
 78
     8
140
2.5
141
2.5
143
0.0393700787
147
0.625
171
     3
172
     1
178
     0
271
     2
272
     2
274
     3
278
    44
283
     0
284
     8
340
11
  0
ENDTAB
  0
TABLE
  2
BLOCK_RECORD
  5
1
330
0
100
AcDbSymbolTable
 70
     2
  0
BLOCK_RECORD
  5
1F
330
1
100
AcDbSymbolTableRecord
100
AcDbBlockTableRecord
  2
*Model_Space
340
22
  0
BLOCK_RECORD
  5
1B
330
1
100
AcDbSymbolTableRecord
100
AcDbBlockTableRecord
  2
*Paper_Space
340
1E
  0
BLOCK_RECORD
  5
23
330
1
100
AcDbSymbolTableRecord
100
AcDbBlockTableRecord
  2
*Paper_Space0
340
26
  0
BLOCK_RECORD
  5
85
330
1
100
AcDbSymbolTableRecord
100
AcDbBlockTableRecord
  2
SW_CENTERMARKSYMBOL_0
340
0
102
{BLKREFS
331
90
102
}
  0
ENDTAB
  0
ENDSEC
  0
SECTION
  2
BLOCKS
  0
BLOCK
  5
20
330
1F
100
AcDbEntity
  8
0
100
AcDbBlockBegin
  2
*Model_Space
 70
     0
 10
0.0
 20
0.0
 30
0.0
  3
*Model_Space
  1

  0
ENDBLK
  5
21
330
1F
100
AcDbEntity
  8
0
100
AcDbBlockEnd
  0
BLOCK
  5
1C
330
1B
100
AcDbEntity
 67
     1
  8
0
100
AcDbBlockBegin
  2
*Paper_Space
 70
     0
 10
0.0
 20
0.0
 30
0.0
  3
*Paper_Space
  1

  0
ENDBLK
  5
1D
330
1B
100
AcDbEntity
 67
     1
  8
0
100
AcDbBlockEnd
  0
BLOCK
  5
24
330
23
100
AcDbEntity
  8
0
100
AcDbBlockBegin
  2
*Paper_Space0
 70
     0
 10
0.0
 20
0.0
 30
0.0
  3
*Paper_Space0
  1

  0
ENDBLK
  5
25
330
23
100
AcDbEntity
  8
0
100
AcDbBlockEnd
  0
BLOCK
  5
86
330
85
100
AcDbEntity
  8
0
100
AcDbBlockBegin
  2
SW_CENTERMARKSYMBOL_0
 70
     0
 10
0.0
 20
0.0
 30
0.0
  3
SW_CENTERMARKSYMBOL_0
  1

  0
LINE
  5
88
330
85
100
AcDbEntity
  8
FORMAT
 62
     0
100
AcDbLine
 10
0.0
 20
0.0
 30
0.0
 11
0.0
 21
2.5
 31
0.0
  0
LINE
  5
89
330
85
100
AcDbEntity
  8
FORMAT
 62
     0
100
AcDbLine
 10
0.0
 20
0.0
 30
0.0
 11
-2.5
 21
0.0
 31
0.0
  0
LINE
  5
8A
330
85
100
AcDbEntity
  8
FORMAT
 62
     0
100
AcDbLine
 10
0.0
 20
0.0
 30
0.0
 11
0.0
 21
-2.5
 31
0.0
  0
LINE
  5
8B
330
85
100
AcDbEntity
  8
FORMAT
 62
     0
100
AcDbLine
 10
0.0
 20
0.0
 30
0.0
 11
2.5
 21
0.0
 31
0.0
  0
LINE
  5
8C
330
85
100
AcDbEntity
  8
FORMAT
 62
     0
100
AcDbLine
 10
0.0
 20
5.0
 30
0.0
 11
0.0
 21
72.5
 31
0.0
  0
LINE
  5
8D
330
85
100
AcDbEntity
  8
FORMAT
 62
     0
100
AcDbLine
 10
-5.0
 20
0.0
 30
0.0
 11
-72.5
 21
0.0
 31
0.0
  0
LINE
  5
8E
330
85
100
AcDbEntity
  8
FORMAT
 62
     0
100
AcDbLine
 10
0.0
 20
-5.0
 30
0.0
 11
0.0
 21
-72.5
 31
0.0
  0
LINE
  5
8F
330
85
100
AcDbEntity
  8
FORMAT
 62
     0
100
AcDbLine
 10
5.0
 20
0.0
 30
0.0
 11
72.5
 21
0.0
 31
0.0
  0
ENDBLK
  5
87
330
85
100
AcDbEntity
  8
0
100
AcDbBlockEnd
  0
ENDSEC
  0
SECTION
  2
ENTITIES
  0
CIRCLE
  5
83
330
1F
100
AcDbEntity
  8
0
  6
Continuous
 62
     7
370
    25
100
AcDbCircle
 10
143.990329982
 20
111.2265523538
 30
0.0
 40
69.99999999999999
  0
CIRCLE
  5
84
330
1F
100
AcDbEntity
  8
0
  6
Continuous
 62
     7
370
    25
100
AcDbCircle
 10
143.990329982
 20
111.2265523538
 30
0.0
 40
61.69999999999998
  0
INSERT
  5
90
330
1F
100
AcDbEntity
  8
FORMAT
 62
     7
100
AcDbBlockReference
  2
SW_CENTERMARKSYMBOL_0
 10
143.990329982
 20
111.2265523538
 30
0.0
  0
LINE
  5
91
330
1F
100
AcDbEntity
  8
0
  6
Continuous
 62
     7
370
    25
100
AcDbLine
 10
73.990329982
 20
27.352774899
 30
0.0
 11
73.990329982
 21
-77.2116829219
 31
0.0
  0
LINE
  5
92
330
1F
100
AcDbEntity
  8
0
  6
Continuous
 62
     7
370
    25
100
AcDbLine
 10
213.990329982
 20
-77.2116829219
 30
0.0
 11
213.990329982
 21
27.352774899
 31
0.0
  0
ARC
  5
93
330
1F
100
AcDbEntity
  8
0
  6
Continuous
 62
     7
370
    25
100
AcDbCircle
 10
141.6971450862
 20
194.4789263904
 30
0.0
 40
279.9999999999998
100
AcDbArc
 50
256.0066041338
 51
270.0
  0
ARC
  5
94
330
1F
100
AcDbEntity
  8
0
  6
Continuous
 62
     7
370
    25
100
AcDbCircle
 10
146.2835148778
 20
194.4789263904
 30
0.0
 40
279.9999999999998
100
AcDbArc
 50
270.0
 51
283.9933958662
  0
LINE
  5
95
330
1F
100
AcDbEntity
  8
0
  6
Continuous
 62
     7
370
    25
100
AcDbLine
 10
141.6971450862
 20
-85.5210736096
 30
0.0
 11
146.2835148778
 21
-85.5210736096
 31
0.0
  0
LINE
  5
96
330
1F
100
AcDbEntity
  8
0
  6
Continuous
 62
     7
370
    25
100
AcDbLine
 10
143.990329982
 20
27.352774899
 30
0.0
 11
213.990329982
 21
27.352774899
 31
0.0
  0
LINE
  5
97
330
1F
100
AcDbEntity
  8
0
  6
Continuous
 62
     7
370
    25
100
AcDbLine
 10
73.990329982
 20
27.352774899
 30
0.0
 11
143.990329982
 21
27.352774899
 31
0.0
  0
LINE
  5
98
330
1F
100
AcDbEntity
  8
0
  6
Continuous
 62
     7
370
    25
100
AcDbLine
 10
143.990329982
 20
-77.2116829219
 30
0.0
 11
213.990329982
 21
-77.2116829219
 31
0.0
  0
LINE
  5
99
330
1F
100
AcDbEntity
  8
0
  6
Continuous
 62
     7
370
    25
100
AcDbLine
 10
73.990329982
 20
-77.2116829219
 30
0.0
 11
143.990329982
 21
-77.2116829219
 31
0.0
  0
LINE
  5
9A
330
1F
100
AcDbEntity
  8
0
  6
Continuous
 62
     7
370
    25
100
AcDbLine
 10
213.990329982
 20
210.7708892944
 30
0.0
 11
213.990329982
 21
315.3353471154
 31
0.0
  0
LINE
  5
9B
330
1F
100
AcDbEntity
  8
0
  6
Continuous
 62
     7
370
    25
100
AcDbLine
 10
73.990329982
 20
315.3353471154
 30
0.0
 11
73.990329982
 21
210.7708892944
 31
0.0
  0
ARC
  5
9C
330
1F
100
AcDbEntity
  8
0
  6
Continuous
 62
     7
370
    25
100
AcDbCircle
 10
146.2835148778
 20
43.6447378031
 30
0.0
 40
279.9999999999998
100
AcDbArc
 50
76.0066041338
 51
90.0
  0
ARC
  5
9D
330
1F
100
AcDbEntity
  8
0
  6
Continuous
 62
     7
370
    25
100
AcDbCircle
 10
141.6971450862
 20
43.6447378031
 30
0.0
 40
279.9999999999998
100
AcDbArc
 50
90.0
 51
103.9933958662
  0
LINE
  5
9E
330
1F
100
AcDbEntity
  8
0
  6
Continuous
 62
     7
370
    25
100
AcDbLine
 10
146.2835148778
 20
323.6447378031
 30
0.0
 11
141.6971450862
 21
323.6447378031
 31
0.0
  0
LINE
  5
9F
330
1F
100
AcDbEntity
  8
0
  6
Continuous
 62
     7
370
    25
100
AcDbLine
 10
213.990329982
 20
210.7708892944
 30
0.0
 11
73.990329982
 21
210.7708892944
 31
0.0
  0
LINE
  5
A0
330
1F
100
AcDbEntity
  8
0
  6
Continuous
 62
     7
370
    25
100
AcDbLine
 10
213.990329982
 20
315.3353471154
 30
0.0
 11
73.990329982
 21
315.3353471154
 31
0.0
  0
LINE
  5
A1
330
1F
100
AcDbEntity
  8
0
  6
Continuous
 62
     7
370
    25
100
AcDbLine
 10
375.9313975463
 20
181.2265523538
 30
0.0
 11
271.3669397254
 21
181.2265523538
 31
0.0
  0
LINE
  5
A2
330
1F
100
AcDbEntity
  8
0
  6
Continuous
 62
     7
370
    25
100
AcDbLine
 10
271.3669397254
 20
41.2265523538
 30
0.0
 11
375.9313975463
 21
41.2265523538
 31
0.0
  0
ARC
  5
A3
330
1F
100
AcDbEntity
  8
0
  6
Continuous
 62
     7
370
    25
100
AcDbCircle
 10
543.0575490376
 20
113.5197372496
 30
0.0
 40
279.9999999999998
100
AcDbArc
 50
166.0066041338
 51
180.0
  0
ARC
  5
A4
330
1F
100
AcDbEntity
  8
0
  6
Continuous
 62
     7
370
    25
100
AcDbCircle
 10
543.0575490376
 20
108.933367458
 30
0.0
 40
279.9999999999998
100
AcDbArc
 50
180.0
 51
193.9933958662
  0
LINE
  5
A5
330
1F
100
AcDbEntity
  8
0
  6
Continuous
 62
     7
370
    25
100
AcDbLine
 10
263.0575490376
 20
113.5197372496
 30
0.0
 11
263.0575490376
 21
108.933367458
 31
0.0
  0
LINE
  5
A6
330
1F
100
AcDbEntity
  8
0
  6
Continuous
 62
     7
370
    25
100
AcDbLine
 10
375.9313975463
 20
181.2265523538
 30
0.0
 11
375.9313975463
 21
41.2265523538
 31
0.0
  0
LINE
  5
A7
330
1F
100
AcDbEntity
  8
0
  6
Continuous
 62
     7
370
    25
100
AcDbLine
 10
271.3669397254
 20
181.2265523538
 30
0.0
 11
271.3669397254
 21
41.2265523538
 31
0.0
  0
LINE
  5
A8
330
1F
100
AcDbEntity
  8
0
  6
Continuous
 62
     7
370
    25
100
AcDbLine
 10
-71.9195693006
 20
41.2265523538
 30
0.0
 11
32.6448885203
 21
41.2265523538
 31
0.0
  0
LINE
  5
A9
330
1F
100
AcDbEntity
  8
0
  6
Continuous
 62
     7
370
    25
100
AcDbLine
 10
32.6448885203
 20
181.2265523538
 30
0.0
 11
-71.9195693006
 21
181.2265523538
 31
0.0
  0
ARC
  5
AA
330
1F
100
AcDbEntity
  8
0
  6
Continuous
 62
     7
370
    25
100
AcDbCircle
 10
-239.0457207919
 20
108.933367458
 30
0.0
 40
279.9999999999998
100
AcDbArc
 50
346.0066041338
 51
0.0
  0
ARC
  5
AB
330
1F
100
AcDbEntity
  8
0
  6
Continuous
 62
     7
370
    25
100
AcDbCircle
 10
-239.0457207919
 20
113.5197372496
 30
0.0
 40
279.9999999999998
100
AcDbArc
 50
0.0
 51
13.9933958662
  0
LINE
  5
AC
330
1F
100
AcDbEntity
  8
0
  6
Continuous
 62
     7
370
    25
100
AcDbLine
 10
40.9542792081
 20
108.933367458
 30
0.0
 11
40.9542792081
 21
113.5197372496
 31
0.0
  0
LINE
  5
AD
330
1F
100
AcDbEntity
  8
0
  6
Continuous
 62
     7
370
    25
100
AcDbLine
 10
-71.9195693006
 20
41.2265523538
 30
0.0
 11
-71.9195693006
 21
181.2265523538
 31
0.0
  0
LINE
  5
AE
330
1F
100
AcDbEntity
  8
0
  6
Continuous
 62
     7
370
    25
100
AcDbLine
 10
32.6448885203
 20
41.2265523538
 30
0.0
 11
32.6448885203
 21
181.2265523538
 31
0.0
  0
LINE
  5
AF
330
1F
100
AcDbEntity
  8
0
  6
Continuous
 62
     7
370
    25
100
AcDbLine
 10
247.8736581582
 20
-112.1334456593
 30
0.0
 11
321.8118953545
 21
-154.817081446
 31
0.0
  0
LINE
  5
B0
330
1F
100
AcDbEntity
  8
0
  6
Continuous
 62
     7
370
    25
100
AcDbLine
 10
391.806206639
 20
-33.5702407127
 30
0.0
 11
317.8679694427
 21
9.113395074
 31
0.0
  0
LWPOLYLINE
  5
B1
330
1F
100
AcDbEntity
  8
0
  6
Continuous
 62
     7
370
    25
100
AcDbPolyline
 90
      134
 70
   128
 43
0.0
 10
282.8708138005
 20
-108.6678821247
 10
285.2083035445
 20
-107.254707254
 10
287.540577435
 20
-105.7171442004
 10
289.8624312567
 20
-104.0586238683
 10
292.1686840461
 20
-102.2828470651
 10
294.4541896512
 20
-100.3937762432
 10
296.7138482155
 20
-98.3956266582
 10
298.942617557
 20
-96.2928569633
 10
301.13552442
 20
-94.0901592598
 10
303.2876755716
 20
-91.7924486276
 10
305.3942687211
 20
-89.4048521576
 10
307.4506032355
 20
-86.9326975111
 10
309.4520906285
 20
-84.3815010319
 10
311.3942647989
 20
-81.7569554367
 10
313.2727919969
 20
-79.0649171132
 10
315.0834804936
 20
-76.3113930514
 10
316.822289935
 20
-73.5025274403
 10
318.4853403574
 20
-70.6445879573
 10
320.0689208449
 20
-67.7439517829
 10
321.5694978104
 20
-64.8070913707
 10
322.9837228797
 20
-61.8405600046
 10
324.3084403638
 20
-58.8509771762
 10
325.5406943
 20
-55.8450138135
 10
326.6777350479
 20
-52.8293773964
 10
327.7170254249
 20
-49.8107969889
 10
328.656246368
 20
-46.7960082242
 10
329.4933021078
 20
-43.7917382748
 10
330.2263248458
 20
-40.8046908417
 10
330.8536789216
 20
-37.8415311959
 10
331.3739644628
 20
-34.9088713051
 10
331.7860205091
 20
-32.0132550803
 10
332.0889276023
 20
-29.1611437735
 10
332.2820098382
 20
-26.3589015603
 10
332.3648363748
 20
-23.6127813388
 10
332.3372223937
 20
-20.928910777
 10
332.1992295126
 20
-18.3132786396
 10
331.9511656475
 20
-15.7717214247
 10
331.5935843259
 20
-13.3099103402
 10
331.1272834515
 20
-10.9333386493
 10
330.553303524
 20
-8.6473094127
 10
329.8729253169
 20
-6.4569236555
 10
329.0876670201
 20
-4.3670689849
 10
328.199280852
 20
-2.3824086837
 10
327.2097491494
 20
-0.5073713053
 10
326.1212799445
 20
1.2538592089
 10
324.9363020378
 20
2.8973528649
 10
323.6574595782
 20
4.4194423857
 10
322.2876061633
 20
5.8167313945
 10
320.8297984718
 20
7.0861019929
 10
319.2872894427
 20
8.224721719
 10
317.6635210168
 20
9.2300498669
 10
315.9621164563
 20
10.0998431563
 10
314.1868722602
 20
10.8321607383
 10
312.3417496923
 20
11.4253685261
 10
310.4308659427
 20
11.8781428411
 10
308.4584849401
 20
12.1894733668
 10
306.4290078378
 20
12.358665403
 10
304.3469631928
 20
12.3853414161
 10
302.2169968609
 20
12.2694418816
 10
300.0438616298
 20
12.0112254166
 10
297.8324066139
 20
11.611268203
 10
295.5875664341
 20
11.0704627017
 10
293.3143502067
 20
10.3900156613
 10
291.0178303659
 20
9.5714454252
 10
288.7031313454
 20
8.6165785437
 10
286.375418144
 20
7.5275456982
 10
284.0398847998
 20
6.3067769467
 10
281.7017428012
 20
4.9569963018
 10
279.366209457
 20
3.4812156518
 10
277.0384962555
 20
1.8827280404
 10
274.7237972351
 20
0.1651003185
 10
272.4272773943
 20
-1.6678348147
 10
270.1540611668
 20
-3.6119873644
 10
267.909220987
 20
-5.6630191659
 10
265.6977659712
 20
-7.8163535653
 10
263.52463074
 20
-10.0671856315
 10
261.3946644081
 20
-12.4104928781
 10
259.3126197632
 20
-14.8410464704
 10
257.2831426609
 20
-17.3534228928
 10
255.3107616583
 20
-19.9420160511
 10
253.3998779086
 20
-22.6010497819
 10
251.5547553408
 20
-25.3245907412
 10
249.7795111446
 20
-28.106561644
 10
248.0781065842
 20
-30.9407548255
 10
246.4543381582
 20
-33.8208460925
 10
244.9118291291
 20
-36.7404088351
 10
243.4540214377
 20
-39.6929283673
 10
242.0841680228
 20
-42.6718164635
 10
240.8053255632
 20
-45.6704260596
 10
239.6203476564
 20
-48.6820660849
 10
238.5318784515
 20
-51.7000163931
 10
237.542346749
 20
-54.7175427568
 10
236.6539605808
 20
-57.7279118948
 10
235.8687022841
 20
-60.7244064965
 10
235.188324077
 20
-63.7003402107
 10
234.6143441495
 20
-66.6490725656
 10
234.1480432751
 20
-69.5640237864
 10
233.7904619535
 20
-72.4386894769
 10
233.5423980884
 20
-75.2666551341
 10
233.4044052072
 20
-78.0416104608
 10
233.3767912262
 20
-80.7573634464
 10
233.4596177628
 20
-83.4078541843
 10
233.6526999987
 20
-85.9871683931
 10
233.9556070918
 20
-88.4895506143
 10
234.3676631381
 20
-90.9094170547
 10
234.8879486794
 20
-93.241368046
 10
235.5153027552
 20
-95.4802000938
 10
236.2483254931
 20
-97.6209174881
 10
237.085381233
 20
-99.6587434516
 10
238.024602176
 20
-101.5891307977
 10
239.0638925531
 20
-103.4077720773
 10
240.200933301
 20
-105.1106091906
 10
241.4331872372
 20
-106.6938424421
 10
242.7579047213
 20
-108.1539390195
 10
244.1721297906
 20
-109.4876408763
 10
245.672706756
 20
-110.6919720021
 10
247.2562872436
 20
-111.7642450634
 10
248.919337666
 20
-112.7020673996
 10
250.6581471074
 20
-113.5033463623
 10
252.4688356041
 20
-114.1662939849
 10
254.3473628021
 20
-114.6894309721
 10
256.2895369725
 20
-115.0715900005
 10
258.2910243654
 20
-115.3119183241
 10
260.3473588799
 20
-115.4098796764
 10
262.4539520294
 20
-115.3652554672
 10
264.606103181
 20
-115.1781452706
 10
266.7990100439
 20
-114.8489666027
 10
269.0277793855
 20
-114.3784539898
 10
271.2874379497
 20
-113.7676573294
 10
273.5729435549
 20
-113.0179395478
 10
275.8791963442
 20
-112.1309735585
 10
278.201050166
 20
-111.1087385295
 10
280.5333240564
 20
-109.9535154667
 10
282.8708138005
 20
-108.6678821247
  0
LWPOLYLINE
  5
B2
330
1F
100
AcDbEntity
  8
0
  6
Continuous
 62
     7
370
    25
100
AcDbPolyline
 90
       51
 70
   128
 43
0.0
 10
356.8090509967
 20
-151.3515179113
 10
359.1465407408
 20
-149.9383430406
 10
361.4788146312
 20
-148.4007799871
 10
363.800668453
 20
-146.742259655
 10
366.1069212424
 20
-144.9664828518
 10
368.3924268475
 20
-143.0774120299
 10
370.6520854118
 20
-141.0792624449
 10
372.8808547533
 20
-138.97649275
 10
375.0737616162
 20
-136.7737950465
 10
377.2259127678
 20
-134.4760844143
 10
379.3325059174
 20
-132.0884879443
 10
381.3888404318
 20
-129.6163332978
 10
383.3903278247
 20
-127.0651368185
 10
385.3325019952
 20
-124.4405912234
 10
387.2110291931
 20
-121.7485528999
 10
389.0217176898
 20
-118.9950288381
 10
390.7605271313
 20
-116.186163227
 10
392.4235775537
 20
-113.3282237439
 10
394.0071580412
 20
-110.4275875696
 10
395.5077350066
 20
-107.4907271574
 10
396.9219600759
 20
-104.5241957913
 10
398.2466775601
 20
-101.5346129628
 10
399.4789314962
 20
-98.5286496002
 10
400.6159722441
 20
-95.5130131831
 10
401.6552626212
 20
-92.4944327756
 10
402.5944835643
 20
-89.4796440108
 10
403.4315393041
 20
-86.4753740614
 10
404.1645620421
 20
-83.4883266284
 10
404.7919161178
 20
-80.5251669826
 10
405.3122016591
 20
-77.5925070918
 10
405.7242577054
 20
-74.696890867
 10
406.0271647986
 20
-71.8447795601
 10
406.2202470344
 20
-69.0425373469
 10
406.303073571
 20
-66.2964171254
 10
406.27545959
 20
-63.6125465637
 10
406.1374667089
 20
-60.9969144263
 10
405.8894028438
 20
-58.4553572114
 10
405.5318215221
 20
-55.9935461269
 10
405.0655206478
 20
-53.616974436
 10
404.4915407202
 20
-51.3309451993
 10
403.8111625132
 20
-49.1405594422
 10
403.0259042164
 20
-47.0507047715
 10
402.1375180483
 20
-45.0660444704
 10
401.1479863457
 20
-43.1910070919
 10
400.0595171408
 20
-41.4297765777
 10
398.874539234
 20
-39.7862829217
 10
397.5956967744
 20
-38.2641934009
 10
396.2258433596
 20
-36.8669043922
 10
394.7680356681
 20
-35.5975337937
 10
393.225526639
 20
-34.4589140676
 10
391.806206639
 20
-33.5702407127
  0
LWPOLYLINE
  5
B3
330
1F
100
AcDbEntity
  8
0
  6
Continuous
 62
     7
370
    25
100
AcDbPolyline
 90
       18
 70
   128
 43
0.0
 10
321.8118953545
 20
-154.817081446
 10
322.8575748622
 20
-155.3857031862
 10
324.5963843037
 20
-156.186982149
 10
326.4070728004
 20
-156.8499297716
 10
328.2855999983
 20
-157.3730667587
 10
330.2277741688
 20
-157.7552257872
 10
332.2292615617
 20
-157.9955541108
 10
334.2855960761
 20
-158.0935154631
 10
336.3921892257
 20
-158.0488912539
 10
338.5443403773
 20
-157.8617810573
 10
340.7372472402
 20
-157.5326023894
 10
342.9660165817
 20
-157.0620897764
 10
345.225675146
 20
-156.4512931161
 10
347.5111807511
 20
-155.7015753345
 10
349.8174335405
 20
-154.8146093452
 10
352.1392873623
 20
-153.7923743161
 10
354.4715612527
 20
-152.6371512534
 10
356.8090509967
 20
-151.3515179113
  0
LWPOLYLINE
  5
B4
330
1F
100
AcDbEntity
  8
0
  6
Continuous
 62
     7
370
    25
100
AcDbPolyline
 90
      126
 70
   128
 43
0.0
 10
282.8708138005
 20
-101.890593386
 10
285.0628974533
 20
-100.5614975856
 10
287.2494437126
 20
-99.1084935092
 10
289.4249291727
 20
-97.5352515711
 10
291.5838583686
 20
-95.8457459169
 10
293.7207776577
 20
-94.0442443846
 10
295.8302889964
 20
-92.1352977235
 10
297.9070635761
 20
-90.1237280984
 10
299.9458552838
 20
-88.0146169088
 10
301.9415139549
 20
-85.8132919527
 10
303.8889983823
 20
-83.5253139678
 10
305.7833890513
 20
-81.1564625852
 10
307.6199005667
 20
-78.7127217291
 10
309.393893741
 20
-76.2002645009
 10
311.1008873135
 20
-73.6254375856
 10
312.7365692702
 20
-70.9947452195
 10
314.2968077367
 20
-68.3148327599
 10
315.777661415
 20
-65.5924698981
 10
317.1753895404
 20
-62.8345335591
 10
318.4864613302
 20
-60.0479905294
 10
319.7075649034
 20
-57.2398798585
 10
320.8356156463
 20
-54.4172950776
 10
321.8677640048
 20
-51.587366281
 10
322.8014026827
 20
-48.7572421144
 10
323.6341732275
 20
-45.9340717169
 10
324.3639719887
 20
-43.1249866621
 10
324.9889554311
 20
-40.3370829426
 10
325.5075447925
 20
-37.5774030452
 10
325.918430071
 20
-34.8529181607
 10
326.2205733348
 20
-32.1705105745
 10
326.4132113438
 20
-29.5369562809
 10
326.4958574777
 20
-26.9589078666
 10
326.468302965
 20
-24.4428777057
 10
326.3306174111
 20
-21.9952215087
 10
326.0831486214
 20
-19.6221222676
 10
325.7265217236
 20
-17.329574637
 10
325.2616375883
 20
-15.1233697912
 10
324.689670553
 20
-13.0090807952
 10
324.0120654563
 20
-10.9920485263
 10
323.2305339872
 20
-9.0773681833
 10
322.3470503623
 20
-7.2698764147
 10
321.3638463377
 20
-5.5741391017
 10
320.2834055722
 20
-3.9944398239
 10
319.108457353
 20
-2.5347690388
 10
317.8419697011
 20
-1.1988140015
 10
316.4871418744
 20
0.0100505497
 10
315.0473962854
 20
1.088770918
 10
313.5263698566
 20
2.0346221622
 10
311.9279048326
 20
2.8452149798
 10
310.2560390748
 20
3.5185017431
 10
308.5149958614
 20
4.0527816714
 10
306.7091732184
 20
4.446705127
 10
304.8431328106
 20
4.6992770253
 10
302.9215884181
 20
4.8098593475
 10
300.9493940288
 20
4.7781727534
 10
298.9315315768
 20
4.6042972858
 10
296.8730983578
 20
4.2886721693
 10
294.7792941527
 20
3.8320947004
 10
292.6554080928
 20
3.2357182333
 10
290.5068052986
 20
2.5010492668
 10
288.3389133271
 20
1.6299436385
 10
286.1572084616
 20
0.6246018368
 10
283.967201878
 20
-0.5124365578
 10
281.774425723
 20
-1.7782992874
 10
279.5844191394
 20
-3.1697886731
 10
277.4027142739
 20
-4.6833896918
 10
275.2348223024
 20
-6.3152788561
 10
273.0862195081
 20
-8.0613338721
 10
270.9623334482
 20
-9.9171440536
 10
268.8685292432
 20
-11.8780214628
 10
266.8100960242
 20
-13.9390127533
 10
264.7922335722
 20
-16.0949116821
 10
262.8200391828
 20
-18.3402722616
 10
260.8984947903
 20
-20.6694225159
 10
259.0324543826
 20
-23.0764788094
 10
257.2266317396
 20
-25.5553607091
 10
255.4855885261
 20
-28.099806344
 10
253.8137227684
 20
-30.7033882238
 10
252.2152577444
 20
-33.3595294745
 10
250.6942313156
 20
-36.0615204529
 10
249.2544857266
 20
-38.8025356953
 10
247.8996578999
 20
-41.5756511592
 10
246.633170248
 20
-44.3738617144
 10
245.4582220287
 20
-47.1900988382
 10
244.3777812632
 20
-50.017248471
 10
243.3945772387
 20
-52.8481689877
 10
242.5110936137
 20
-55.6757092373
 10
241.7295621447
 20
-58.4927266077
 10
241.051957048
 20
-61.2921050686
 10
240.4799900127
 20
-64.066773147
 10
240.0151058774
 20
-66.8097217905
 10
239.6584789796
 20
-69.5140220728
 10
239.4110101899
 20
-72.1728426968
 10
239.2733246359
 20
-74.7794672507
 10
239.2457701233
 20
-77.3273111747
 10
239.3284162572
 20
-79.8099383939
 10
239.5210542661
 20
-82.2210775766
 10
239.8231975299
 20
-84.5546379758
 10
240.2340828085
 20
-86.8047248155
 10
240.7526721698
 20
-88.9656541811
 10
241.3776556123
 20
-91.0319673774
 10
242.1074543735
 20
-92.998444718
 10
242.9402249183
 20
-94.8601187104
 10
243.8738635962
 20
-96.6122866046
 10
244.9060119547
 20
-98.2505222723
 10
246.0340626976
 20
-99.7706873882
 10
247.2551662708
 20
-101.1689418832
 10
248.5662380606
 20
-102.441753645
 10
249.963966186
 20
-103.5859074408
 10
251.4448198643
 20
-104.5985130388
 10
253.0050583308
 20
-105.4770125092
 10
254.6407402875
 20
-106.2191866862
 10
256.34773386
 20
-106.8231607735
 10
258.1217270343
 20
-107.28740908
 10
259.9582385497
 20
-107.6107588743
 10
261.8526292187
 20
-107.7923933467
 10
263.800113646
 20
-107.8318536727
 10
265.7957723171
 20
-107.7290401722
 10
267.8345640249
 20
-107.484212561
 10
269.9113386046
 20
-107.0979892949
 10
272.0208499433
 20
-106.5713460073
 10
274.1577692324
 20
-105.9056130449
 10
276.3166984283
 20
-105.102472107
 10
278.4921838884
 20
-104.1639519973
 10
280.6787301477
 20
-103.0924234989
 10
282.8708138005
 20
-101.890593386
  0
ENDSEC
  0
SECTION
  2
OBJECTS
  0
DICTIONARY
  5
C
330
0
100
AcDbDictionary
281
     1
  3
ACAD_GROUP
350
D
  3
ACAD_LAYOUT
350
1A
  3
ACAD_MLINESTYLE
350
17
  3
ACAD_PLOTSETTINGS
350
19
  3
ACAD_PLOTSTYLENAME
350
E
  3
ACAD_SCALELIST
350
47
  3
DWGPROPS
350
B5
  0
DICTIONARY
  5
D
102
{ACAD_REACTORS
330
C
102
}
330
C
100
AcDbDictionary
281
     1
  0
DICTIONARY
  5
1A
102
{ACAD_REACTORS
330
C
102
}
330
C
100
AcDbDictionary
281
     1
  3
Layout1
350
1E
  3
Layout2
350
26
  3
Model
350
22
  0
DICTIONARY
  5
17
102
{ACAD_REACTORS
330
C
102
}
330
C
100
AcDbDictionary
281
     1
  3
Standard
350
18
  0
DICTIONARY
  5
19
102
{ACAD_REACTORS
330
C
102
}
330
C
100
AcDbDictionary
281
     1
  0
ACDBDICTIONARYWDFLT
  5
E
102
{ACAD_REACTORS
330
C
102
}
330
C
100
AcDbDictionary
281
     1
  3
Normal
350
F
100
AcDbDictionaryWithDefault
340
F
  0
DICTIONARY
  5
47
102
{ACAD_REACTORS
330
C
102
}
330
C
100
AcDbDictionary
281
     1
  3
A0
350
48
  3
A1
350
49
  3
A2
350
4A
  3
A3
350
4B
  3
A4
350
4C
  3
A5
350
4D
  3
A6
350
4E
  3
A7
350
4F
  3
A8
350
50
  3
A9
350
51
  3
B0
350
52
  3
B1
350
53
  3
B2
350
54
  3
B3
350
55
  3
B4
350
56
  3
B5
350
57
  3
B6
350
58
  3
B7
350
59
  3
B8
350
5A
  3
B9
350
5B
  3
C0
350
5C
  3
C1
350
5D
  3
C2
350
5E
  3
C3
350
5F
  3
C4
350
60
  3
C5
350
61
  3
C6
350
62
  3
C7
350
63
  3
C8
350
64
  3
C9
350
65
  3
D0
350
66
  3
D1
350
67
  3
D2
350
68
  0
XRECORD
  5
B5
102
{ACAD_REACTORS
330
C
102
}
330
C
100
AcDbXrecord
280
     1
  1
DWGPROPS COOKIE
  2

  3

  4

  6

  7

  8
b.kav
  9

300
=
301
=
302
=
303
=
304
=
305
=
306
=
307
=
308
=
309
=
 40
0.0
 41
2460704.335199699
 42
2460704.335199872
  1

 90
        0
  0
LAYOUT
  5
1E
102
{ACAD_REACTORS
330
1A
102
}
330
1A
100
AcDbPlotSettings
  1

  2
none_device
  4

  6

 40
0.0
 41
0.0
 42
0.0
 43
0.0
 44
0.0
 45
0.0
 46
0.0
 47
0.0
 48
0.0
 49
0.0
140
0.0
141
0.0
142
1.0
143
1.0
 70
   688
 72
     1
 73
     0
 74
     5
  7

 75
    16
147
1.0
148
0.0
149
0.0
100
AcDbLayout
  1
Layout1
 70
     1
 71
     1
 10
0.0
 20
0.0
 11
420.0
 21
297.0
 12
0.0
 22
0.0
 32
0.0
 14
1.0000000000E+20
 24
1.0000000000E+20
 34
1.0000000000E+20
 15
-1.0000000000E+20
 25
-1.0000000000E+20
 35
-1.0000000000E+20
146
0.0
 13
0.0
 23
0.0
 33
0.0
 16
1.0
 26
0.0
 36
0.0
 17
0.0
 27
1.0
 37
0.0
 76
     0
330
1B
  0
LAYOUT
  5
26
102
{ACAD_REACTORS
330
1A
102
}
330
1A
100
AcDbPlotSettings
  1

  2
none_device
  4

  6

 40
0.0
 41
0.0
 42
0.0
 43
0.0
 44
0.0
 45
0.0
 46
0.0
 47
0.0
 48
0.0
 49
0.0
140
0.0
141
0.0
142
1.0
143
1.0
 70
   688
 72
     1
 73
     0
 74
     5
  7

 75
    16
147
1.0
148
0.0
149
0.0
100
AcDbLayout
  1
Layout2
 70
     1
 71
     2
 10
0.0
 20
0.0
 11
0.0
 21
0.0
 12
0.0
 22
0.0
 32
0.0
 14
0.0
 24
0.0
 34
0.0
 15
0.0
 25
0.0
 35
0.0
146
0.0
 13
0.0
 23
0.0
 33
0.0
 16
1.0
 26
0.0
 36
0.0
 17
0.0
 27
1.0
 37
0.0
 76
     0
330
23
  0
LAYOUT
  5
22
102
{ACAD_REACTORS
330
1A
102
}
330
1A
100
AcDbPlotSettings
  1

  2
none_device
  4
Letter_(8.50_x_11.00_Inches)
  6

 40
6.35
 41
6.35
 42
6.35000508
 43
6.35000508
 44
215.9
 45
279.4
 46
0.0
 47
0.0
 48
0.0
 49
0.0
140
0.0
141
0.0
142
1.0
143
1.0
 70
  1712
 72
     1
 73
     0
 74
     0
  7

 75
     0
147
1.0
148
0.0
149
0.0
100
AcDbLayout
  1
Model
 70
     1
 71
     0
 10
0.0
 20
0.0
 11
279.4
 21
215.9
 12
0.0
 22
0.0
 32
0.0
 14
0.0
 24
0.0
 34
0.0
 15
279.4
 25
215.9
 35
0.0
146
0.0
 13
0.0
 23
0.0
 33
0.0
 16
1.0
 26
0.0
 36
0.0
 17
0.0
 27
1.0
 37
0.0
 76
     0
330
1F
331
29
  0
MLINESTYLE
  5
18
102
{ACAD_REACTORS
330
17
102
}
330
17
100
AcDbMlineStyle
  2
Standard
 70
     0
  3

 62
   256
 51
90.0
 52
90.0
 71
     2
 49
0.5
 62
   256
  6
BYLAYER
 49
-0.5
 62
   256
  6
BYLAYER
  0
ACDBPLACEHOLDER
  5
F
102
{ACAD_REACTORS
330
E
102
}
330
E
  0
SCALE
  5
48
102
{ACAD_REACTORS
330
47
102
}
330
47
100
AcDbScale
 70
     0
300
1:1
140
1.0
141
1.0
290
     1
  0
SCALE
  5
49
102
{ACAD_REACTORS
330
47
102
}
330
47
100
AcDbScale
 70
     0
300
1:2
140
1.0
141
2.0
290
     0
  0
SCALE
  5
4A
102
{ACAD_REACTORS
330
47
102
}
330
47
100
AcDbScale
 70
     0
300
1:4
140
1.0
141
4.0
290
     0
  0
SCALE
  5
4B
102
{ACAD_REACTORS
330
47
102
}
330
47
100
AcDbScale
 70
     0
300
1:5
140
1.0
141
5.0
290
     0
  0
SCALE
  5
4C
102
{ACAD_REACTORS
330
47
102
}
330
47
100
AcDbScale
 70
     0
300
1:8
140
1.0
141
8.0
290
     0
  0
SCALE
  5
4D
102
{ACAD_REACTORS
330
47
102
}
330
47
100
AcDbScale
 70
     0
300
1:10
140
1.0
141
10.0
290
     0
  0
SCALE
  5
4E
102
{ACAD_REACTORS
330
47
102
}
330
47
100
AcDbScale
 70
     0
300
1:16
140
1.0
141
16.0
290
     0
  0
SCALE
  5
4F
102
{ACAD_REACTORS
330
47
102
}
330
47
100
AcDbScale
 70
     0
300
1:20
140
1.0
141
20.0
290
     0
  0
SCALE
  5
50
102
{ACAD_REACTORS
330
47
102
}
330
47
100
AcDbScale
 70
     0
300
1:30
140
1.0
141
30.0
290
     0
  0
SCALE
  5
51
102
{ACAD_REACTORS
330
47
102
}
330
47
100
AcDbScale
 70
     0
300
1:40
140
1.0
141
40.0
290
     0
  0
SCALE
  5
52
102
{ACAD_REACTORS
330
47
102
}
330
47
100
AcDbScale
 70
     0
300
1:50
140
1.0
141
50.0
290
     0
  0
SCALE
  5
53
102
{ACAD_REACTORS
330
47
102
}
330
47
100
AcDbScale
 70
     0
300
1:100
140
1.0
141
100.0
290
     0
  0
SCALE
  5
54
102
{ACAD_REACTORS
330
47
102
}
330
47
100
AcDbScale
 70
     0
300
2:1
140
2.0
141
1.0
290
     0
  0
SCALE
  5
55
102
{ACAD_REACTORS
330
47
102
}
330
47
100
AcDbScale
 70
     0
300
4:1
140
4.0
141
1.0
290
     0
  0
SCALE
  5
56
102
{ACAD_REACTORS
330
47
102
}
330
47
100
AcDbScale
 70
     0
300
8:1
140
8.0
141
1.0
290
     0
  0
SCALE
  5
57
102
{ACAD_REACTORS
330
47
102
}
330
47
100
AcDbScale
 70
     0
300
10:1
140
10.0
141
1.0
290
     0
  0
SCALE
  5
58
102
{ACAD_REACTORS
330
47
102
}
330
47
100
AcDbScale
 70
     0
300
100:1
140
100.0
141
1.0
290
     0
  0
SCALE
  5
59
102
{ACAD_REACTORS
330
47
102
}
330
47
100
AcDbScale
 70
     0
300
1/128" = 1'-0"
140
0.0078125
141
12.0
290
     0
  0
SCALE
  5
5A
102
{ACAD_REACTORS
330
47
102
}
330
47
100
AcDbScale
 70
     0
300
1/64" = 1'-0"
140
0.015625
141
12.0
290
     0
  0
SCALE
  5
5B
102
{ACAD_REACTORS
330
47
102
}
330
47
100
AcDbScale
 70
     0
300
1/32" = 1'-0"
140
0.03125
141
12.0
290
     0
  0
SCALE
  5
5C
102
{ACAD_REACTORS
330
47
102
}
330
47
100
AcDbScale
 70
     0
300
1/16" = 1'-0"
140
0.0625
141
12.0
290
     0
  0
SCALE
  5
5D
102
{ACAD_REACTORS
330
47
102
}
330
47
100
AcDbScale
 70
     0
300
3/32" = 1'-0"
140
0.09375
141
12.0
290
     0
  0
SCALE
  5
5E
102
{ACAD_REACTORS
330
47
102
}
330
47
100
AcDbScale
 70
     0
300
1/8" = 1'-0"
140
0.125
141
12.0
290
     0
  0
SCALE
  5
5F
102
{ACAD_REACTORS
330
47
102
}
330
47
100
AcDbScale
 70
     0
300
3/16" = 1'-0"
140
0.1875
141
12.0
290
     0
  0
SCALE
  5
60
102
{ACAD_REACTORS
330
47
102
}
330
47
100
AcDbScale
 70
     0
300
1/4" = 1'-0"
140
0.25
141
12.0
290
     0
  0
SCALE
  5
61
102
{ACAD_REACTORS
330
47
102
}
330
47
100
AcDbScale
 70
     0
300
3/8" = 1'-0"
140
0.375
141
12.0
290
     0
  0
SCALE
  5
62
102
{ACAD_REACTORS
330
47
102
}
330
47
100
AcDbScale
 70
     0
300
1/2" = 1'-0"
140
0.5
141
12.0
290
     0
  0
SCALE
  5
63
102
{ACAD_REACTORS
330
47
102
}
330
47
100
AcDbScale
 70
     0
300
3/4" = 1'-0"
140
0.75
141
12.0
290
     0
  0
SCALE
  5
64
102
{ACAD_REACTORS
330
47
102
}
330
47
100
AcDbScale
 70
     0
300
1" = 1'-0"
140
1.0
141
12.0
290
     0
  0
SCALE
  5
65
102
{ACAD_REACTORS
330
47
102
}
330
47
100
AcDbScale
 70
     0
300
1-1/2" = 1'-0"
140
1.5
141
12.0
290
     0
  0
SCALE
  5
66
102
{ACAD_REACTORS
330
47
102
}
330
47
100
AcDbScale
 70
     0
300
3" = 1'-0"
140
3.0
141
12.0
290
     0
  0
SCALE
  5
67
102
{ACAD_REACTORS
330
47
102
}
330
47
100
AcDbScale
 70
     0
300
6" = 1'-0"
140
6.0
141
12.0
290
     0
  0
SCALE
  5
68
102
{ACAD_REACTORS
330
47
102
}
330
47
100
AcDbScale
 70
     0
300
1'-0" = 1'-0"
140
12.0
141
12.0
290
     0
  0
ENDSEC
  0
EOF
